ISO-10303-21;
HEADER;
/* Generated by software containing ST-Developer
 * from STEP Tools, Inc. (www.steptools.com) 
 */

FILE_DESCRIPTION(
/* description */ ('Alibre Inc.'),
/* implementation_level */ '2;1');

FILE_NAME(
/* name */ 'export-F6E17E42-27D4-4ABF-90AD-898CD30CEF28',
/* time_stamp */ '2022-04-02T13:48:43-04:00',
/* author */ (''),
/* organization */ (''),
/* preprocessor_version */ 'ST-DEVELOPER v17',
/* originating_system */ 'Alibre',
/* authorisation */ '');

FILE_SCHEMA (('AUTOMOTIVE_DESIGN'));
ENDSEC;

DATA;
#10=STYLED_ITEM('NAME_0',(#18),#551);
#11=MECHANICAL_DESIGN_GEOMETRIC_PRESENTATION_REPRESENTATION('NAME_0',(#10),
#33);
#12=COLOUR_RGB('',0.882352941176471,0.882352941176471,0.882352941176471);
#13=FILL_AREA_STYLE_COLOUR('NAME_0',#12);
#14=FILL_AREA_STYLE('NAME_0',(#13));
#15=SURFACE_STYLE_FILL_AREA(#14);
#16=SURFACE_SIDE_STYLE('NAME_0',(#15));
#17=SURFACE_STYLE_USAGE(.POSITIVE.,#16);
#18=PRESENTATION_STYLE_ASSIGNMENT((#17));
#19=PRODUCT_DEFINITION_CONTEXT('part definition',#26,'design');
#20=SHAPE_DEFINITION_REPRESENTATION(#21,#552);
#21=PRODUCT_DEFINITION_SHAPE('PRODUCT_VERSION_ID',
'PRODUCT_VERSION_DESCR',#22);
#22=PRODUCT_DEFINITION('PRODUCT_VERSION_ID','PRODUCT_VERSION_DESCR',#23,
#19);
#23=PRODUCT_DEFINITION_FORMATION_WITH_SPECIFIED_SOURCE(
'PRODUCT_VERSION_ID','PRODUCT_VERSION_DESCR',#28,.MADE.);
#24=PRODUCT_RELATED_PRODUCT_CATEGORY('part','part',(#28));
#25=APPLICATION_PROTOCOL_DEFINITION('Draft International Standard',
'automotive_design',1994,#26);
#26=APPLICATION_CONTEXT('automotive_Design');
#27=PRODUCT_CONTEXT('3D Mechanical Parts',#26,'mechanical');
#28=PRODUCT('','UPlate','',(#27));
#29=(
LENGTH_UNIT()
NAMED_UNIT(*)
SI_UNIT(.CENTI.,.METRE.)
);
#30=(
NAMED_UNIT(*)
PLANE_ANGLE_UNIT()
SI_UNIT($,.RADIAN.)
);
#31=(
NAMED_UNIT(*)
SI_UNIT($,.STERADIAN.)
SOLID_ANGLE_UNIT()
);
#32=UNCERTAINTY_MEASURE_WITH_UNIT(LENGTH_MEASURE(1.E-6),#29,
'DISTANCE_ACCURACY_VALUE',
'Maximum model space distance between geometric entities at asserted c
onnectivities');
#33=(
GEOMETRIC_REPRESENTATION_CONTEXT(3)
GLOBAL_UNCERTAINTY_ASSIGNED_CONTEXT((#32))
GLOBAL_UNIT_ASSIGNED_CONTEXT((#31,#30,#29))
REPRESENTATION_CONTEXT('ID1','3D')
);
#34=CIRCLE('',#345,0.26035);
#35=CIRCLE('',#346,0.26035);
#36=CIRCLE('',#348,0.26035);
#37=CIRCLE('',#349,0.26035);
#38=CIRCLE('',#351,0.26035);
#39=CIRCLE('',#352,0.26035);
#40=CIRCLE('',#354,0.203200000000002);
#41=CIRCLE('',#355,0.203200000000002);
#42=CIRCLE('',#357,0.2032);
#43=CIRCLE('',#358,0.2032);
#44=CIRCLE('',#360,0.203199999999999);
#45=CIRCLE('',#361,0.203199999999999);
#46=CIRCLE('',#363,0.238125);
#47=CIRCLE('',#364,0.238125);
#48=CIRCLE('',#366,0.238124999999997);
#49=CIRCLE('',#367,0.238124999999997);
#50=CIRCLE('',#369,0.396875);
#51=CIRCLE('',#370,0.396875);
#52=CIRCLE('',#372,0.396875000000001);
#53=CIRCLE('',#373,0.396875000000001);
#54=CIRCLE('',#375,0.26035);
#55=CIRCLE('',#376,0.26035);
#56=CYLINDRICAL_SURFACE('',#344,0.26035);
#57=CYLINDRICAL_SURFACE('',#347,0.26035);
#58=CYLINDRICAL_SURFACE('',#350,0.26035);
#59=CYLINDRICAL_SURFACE('',#353,0.203200000000002);
#60=CYLINDRICAL_SURFACE('',#356,0.2032);
#61=CYLINDRICAL_SURFACE('',#359,0.203199999999999);
#62=CYLINDRICAL_SURFACE('',#362,0.238125);
#63=CYLINDRICAL_SURFACE('',#365,0.238124999999997);
#64=CYLINDRICAL_SURFACE('',#368,0.396875);
#65=CYLINDRICAL_SURFACE('',#371,0.396875000000001);
#66=CYLINDRICAL_SURFACE('',#374,0.26035);
#67=VERTEX_POINT('',#465);
#68=VERTEX_POINT('',#466);
#69=VERTEX_POINT('',#468);
#70=VERTEX_POINT('',#470);
#71=VERTEX_POINT('',#474);
#72=VERTEX_POINT('',#476);
#73=VERTEX_POINT('',#480);
#74=VERTEX_POINT('',#482);
#75=VERTEX_POINT('',#489);
#76=VERTEX_POINT('',#491);
#77=VERTEX_POINT('',#494);
#78=VERTEX_POINT('',#496);
#79=VERTEX_POINT('',#499);
#80=VERTEX_POINT('',#501);
#81=VERTEX_POINT('',#504);
#82=VERTEX_POINT('',#506);
#83=VERTEX_POINT('',#509);
#84=VERTEX_POINT('',#511);
#85=VERTEX_POINT('',#514);
#86=VERTEX_POINT('',#516);
#87=VERTEX_POINT('',#519);
#88=VERTEX_POINT('',#521);
#89=VERTEX_POINT('',#524);
#90=VERTEX_POINT('',#526);
#91=VERTEX_POINT('',#529);
#92=VERTEX_POINT('',#531);
#93=VERTEX_POINT('',#534);
#94=VERTEX_POINT('',#536);
#95=VERTEX_POINT('',#539);
#96=VERTEX_POINT('',#541);
#97=VECTOR('',#380,1.);
#98=VECTOR('',#381,1.);
#99=VECTOR('',#382,1.);
#100=VECTOR('',#383,1.);
#101=VECTOR('',#385,1.);
#102=VECTOR('',#386,1.);
#103=VECTOR('',#387,1.);
#104=VECTOR('',#389,1.);
#105=VECTOR('',#390,1.);
#106=VECTOR('',#391,1.);
#107=VECTOR('',#393,1.);
#108=VECTOR('',#394,1.);
#109=LINE('',#464,#97);
#110=LINE('',#467,#98);
#111=LINE('',#469,#99);
#112=LINE('',#471,#100);
#113=LINE('',#473,#101);
#114=LINE('',#475,#102);
#115=LINE('',#477,#103);
#116=LINE('',#479,#104);
#117=LINE('',#481,#105);
#118=LINE('',#483,#106);
#119=LINE('',#485,#107);
#120=LINE('',#486,#108);
#121=EDGE_CURVE('',#67,#68,#109,.T.);
#122=EDGE_CURVE('',#69,#68,#110,.T.);
#123=EDGE_CURVE('',#69,#70,#111,.T.);
#124=EDGE_CURVE('',#70,#67,#112,.T.);
#125=EDGE_CURVE('',#68,#71,#113,.T.);
#126=EDGE_CURVE('',#72,#71,#114,.T.);
#127=EDGE_CURVE('',#72,#69,#115,.T.);
#128=EDGE_CURVE('',#71,#73,#116,.T.);
#129=EDGE_CURVE('',#74,#73,#117,.T.);
#130=EDGE_CURVE('',#74,#72,#118,.T.);
#131=EDGE_CURVE('',#73,#67,#119,.T.);
#132=EDGE_CURVE('',#70,#74,#120,.T.);
#133=EDGE_CURVE('',#75,#75,#34,.T.);
#134=EDGE_CURVE('',#76,#76,#35,.T.);
#135=EDGE_CURVE('',#77,#77,#36,.T.);
#136=EDGE_CURVE('',#78,#78,#37,.T.);
#137=EDGE_CURVE('',#79,#79,#38,.T.);
#138=EDGE_CURVE('',#80,#80,#39,.T.);
#139=EDGE_CURVE('',#81,#81,#40,.T.);
#140=EDGE_CURVE('',#82,#82,#41,.T.);
#141=EDGE_CURVE('',#83,#83,#42,.T.);
#142=EDGE_CURVE('',#84,#84,#43,.T.);
#143=EDGE_CURVE('',#85,#85,#44,.T.);
#144=EDGE_CURVE('',#86,#86,#45,.T.);
#145=EDGE_CURVE('',#87,#87,#46,.T.);
#146=EDGE_CURVE('',#88,#88,#47,.T.);
#147=EDGE_CURVE('',#89,#89,#48,.T.);
#148=EDGE_CURVE('',#90,#90,#49,.T.);
#149=EDGE_CURVE('',#91,#91,#50,.T.);
#150=EDGE_CURVE('',#92,#92,#51,.T.);
#151=EDGE_CURVE('',#93,#93,#52,.T.);
#152=EDGE_CURVE('',#94,#94,#53,.T.);
#153=EDGE_CURVE('',#95,#95,#54,.T.);
#154=EDGE_CURVE('',#96,#96,#55,.T.);
#155=ORIENTED_EDGE('',*,*,#121,.T.);
#156=ORIENTED_EDGE('',*,*,#122,.F.);
#157=ORIENTED_EDGE('',*,*,#123,.T.);
#158=ORIENTED_EDGE('',*,*,#124,.T.);
#159=ORIENTED_EDGE('',*,*,#125,.T.);
#160=ORIENTED_EDGE('',*,*,#126,.F.);
#161=ORIENTED_EDGE('',*,*,#127,.T.);
#162=ORIENTED_EDGE('',*,*,#122,.T.);
#163=ORIENTED_EDGE('',*,*,#128,.T.);
#164=ORIENTED_EDGE('',*,*,#129,.F.);
#165=ORIENTED_EDGE('',*,*,#130,.T.);
#166=ORIENTED_EDGE('',*,*,#126,.T.);
#167=ORIENTED_EDGE('',*,*,#131,.T.);
#168=ORIENTED_EDGE('',*,*,#124,.F.);
#169=ORIENTED_EDGE('',*,*,#132,.T.);
#170=ORIENTED_EDGE('',*,*,#129,.T.);
#171=ORIENTED_EDGE('',*,*,#133,.T.);
#172=ORIENTED_EDGE('',*,*,#134,.F.);
#173=ORIENTED_EDGE('',*,*,#135,.T.);
#174=ORIENTED_EDGE('',*,*,#136,.F.);
#175=ORIENTED_EDGE('',*,*,#137,.T.);
#176=ORIENTED_EDGE('',*,*,#138,.F.);
#177=ORIENTED_EDGE('',*,*,#139,.T.);
#178=ORIENTED_EDGE('',*,*,#140,.F.);
#179=ORIENTED_EDGE('',*,*,#141,.T.);
#180=ORIENTED_EDGE('',*,*,#142,.F.);
#181=ORIENTED_EDGE('',*,*,#143,.T.);
#182=ORIENTED_EDGE('',*,*,#144,.F.);
#183=ORIENTED_EDGE('',*,*,#145,.T.);
#184=ORIENTED_EDGE('',*,*,#146,.F.);
#185=ORIENTED_EDGE('',*,*,#147,.T.);
#186=ORIENTED_EDGE('',*,*,#148,.F.);
#187=ORIENTED_EDGE('',*,*,#149,.T.);
#188=ORIENTED_EDGE('',*,*,#150,.F.);
#189=ORIENTED_EDGE('',*,*,#151,.T.);
#190=ORIENTED_EDGE('',*,*,#152,.F.);
#191=ORIENTED_EDGE('',*,*,#153,.T.);
#192=ORIENTED_EDGE('',*,*,#154,.F.);
#193=ORIENTED_EDGE('',*,*,#153,.F.);
#194=ORIENTED_EDGE('',*,*,#151,.F.);
#195=ORIENTED_EDGE('',*,*,#149,.F.);
#196=ORIENTED_EDGE('',*,*,#147,.F.);
#197=ORIENTED_EDGE('',*,*,#145,.F.);
#198=ORIENTED_EDGE('',*,*,#143,.F.);
#199=ORIENTED_EDGE('',*,*,#141,.F.);
#200=ORIENTED_EDGE('',*,*,#139,.F.);
#201=ORIENTED_EDGE('',*,*,#137,.F.);
#202=ORIENTED_EDGE('',*,*,#135,.F.);
#203=ORIENTED_EDGE('',*,*,#133,.F.);
#204=ORIENTED_EDGE('',*,*,#121,.F.);
#205=ORIENTED_EDGE('',*,*,#131,.F.);
#206=ORIENTED_EDGE('',*,*,#128,.F.);
#207=ORIENTED_EDGE('',*,*,#125,.F.);
#208=ORIENTED_EDGE('',*,*,#154,.T.);
#209=ORIENTED_EDGE('',*,*,#152,.T.);
#210=ORIENTED_EDGE('',*,*,#150,.T.);
#211=ORIENTED_EDGE('',*,*,#148,.T.);
#212=ORIENTED_EDGE('',*,*,#146,.T.);
#213=ORIENTED_EDGE('',*,*,#144,.T.);
#214=ORIENTED_EDGE('',*,*,#142,.T.);
#215=ORIENTED_EDGE('',*,*,#140,.T.);
#216=ORIENTED_EDGE('',*,*,#138,.T.);
#217=ORIENTED_EDGE('',*,*,#136,.T.);
#218=ORIENTED_EDGE('',*,*,#134,.T.);
#219=ORIENTED_EDGE('',*,*,#132,.F.);
#220=ORIENTED_EDGE('',*,*,#123,.F.);
#221=ORIENTED_EDGE('',*,*,#127,.F.);
#222=ORIENTED_EDGE('',*,*,#130,.F.);
#223=EDGE_LOOP('',(#155,#156,#157,#158));
#224=EDGE_LOOP('',(#159,#160,#161,#162));
#225=EDGE_LOOP('',(#163,#164,#165,#166));
#226=EDGE_LOOP('',(#167,#168,#169,#170));
#227=EDGE_LOOP('',(#171));
#228=EDGE_LOOP('',(#172));
#229=EDGE_LOOP('',(#173));
#230=EDGE_LOOP('',(#174));
#231=EDGE_LOOP('',(#175));
#232=EDGE_LOOP('',(#176));
#233=EDGE_LOOP('',(#177));
#234=EDGE_LOOP('',(#178));
#235=EDGE_LOOP('',(#179));
#236=EDGE_LOOP('',(#180));
#237=EDGE_LOOP('',(#181));
#238=EDGE_LOOP('',(#182));
#239=EDGE_LOOP('',(#183));
#240=EDGE_LOOP('',(#184));
#241=EDGE_LOOP('',(#185));
#242=EDGE_LOOP('',(#186));
#243=EDGE_LOOP('',(#187));
#244=EDGE_LOOP('',(#188));
#245=EDGE_LOOP('',(#189));
#246=EDGE_LOOP('',(#190));
#247=EDGE_LOOP('',(#191));
#248=EDGE_LOOP('',(#192));
#249=EDGE_LOOP('',(#193));
#250=EDGE_LOOP('',(#194));
#251=EDGE_LOOP('',(#195));
#252=EDGE_LOOP('',(#196));
#253=EDGE_LOOP('',(#197));
#254=EDGE_LOOP('',(#198));
#255=EDGE_LOOP('',(#199));
#256=EDGE_LOOP('',(#200));
#257=EDGE_LOOP('',(#201));
#258=EDGE_LOOP('',(#202));
#259=EDGE_LOOP('',(#203));
#260=EDGE_LOOP('',(#204,#205,#206,#207));
#261=EDGE_LOOP('',(#208));
#262=EDGE_LOOP('',(#209));
#263=EDGE_LOOP('',(#210));
#264=EDGE_LOOP('',(#211));
#265=EDGE_LOOP('',(#212));
#266=EDGE_LOOP('',(#213));
#267=EDGE_LOOP('',(#214));
#268=EDGE_LOOP('',(#215));
#269=EDGE_LOOP('',(#216));
#270=EDGE_LOOP('',(#217));
#271=EDGE_LOOP('',(#218));
#272=EDGE_LOOP('',(#219,#220,#221,#222));
#273=FACE_BOUND('',#223,.T.);
#274=FACE_BOUND('',#224,.T.);
#275=FACE_BOUND('',#225,.T.);
#276=FACE_BOUND('',#226,.T.);
#277=FACE_BOUND('',#227,.T.);
#278=FACE_BOUND('',#228,.T.);
#279=FACE_BOUND('',#229,.T.);
#280=FACE_BOUND('',#230,.T.);
#281=FACE_BOUND('',#231,.T.);
#282=FACE_BOUND('',#232,.T.);
#283=FACE_BOUND('',#233,.T.);
#284=FACE_BOUND('',#234,.T.);
#285=FACE_BOUND('',#235,.T.);
#286=FACE_BOUND('',#236,.T.);
#287=FACE_BOUND('',#237,.T.);
#288=FACE_BOUND('',#238,.T.);
#289=FACE_BOUND('',#239,.T.);
#290=FACE_BOUND('',#240,.T.);
#291=FACE_BOUND('',#241,.T.);
#292=FACE_BOUND('',#242,.T.);
#293=FACE_BOUND('',#243,.T.);
#294=FACE_BOUND('',#244,.T.);
#295=FACE_BOUND('',#245,.T.);
#296=FACE_BOUND('',#246,.T.);
#297=FACE_BOUND('',#247,.T.);
#298=FACE_BOUND('',#248,.T.);
#299=FACE_BOUND('',#249,.T.);
#300=FACE_BOUND('',#250,.T.);
#301=FACE_BOUND('',#251,.T.);
#302=FACE_BOUND('',#252,.T.);
#303=FACE_BOUND('',#253,.T.);
#304=FACE_BOUND('',#254,.T.);
#305=FACE_BOUND('',#255,.T.);
#306=FACE_BOUND('',#256,.T.);
#307=FACE_BOUND('',#257,.T.);
#308=FACE_BOUND('',#258,.T.);
#309=FACE_BOUND('',#259,.T.);
#310=FACE_BOUND('',#260,.T.);
#311=FACE_BOUND('',#261,.T.);
#312=FACE_BOUND('',#262,.T.);
#313=FACE_BOUND('',#263,.T.);
#314=FACE_BOUND('',#264,.T.);
#315=FACE_BOUND('',#265,.T.);
#316=FACE_BOUND('',#266,.T.);
#317=FACE_BOUND('',#267,.T.);
#318=FACE_BOUND('',#268,.T.);
#319=FACE_BOUND('',#269,.T.);
#320=FACE_BOUND('',#270,.T.);
#321=FACE_BOUND('',#271,.T.);
#322=FACE_BOUND('',#272,.T.);
#323=ADVANCED_FACE('',(#273),#544,.T.);
#324=ADVANCED_FACE('',(#274),#545,.T.);
#325=ADVANCED_FACE('',(#275),#546,.T.);
#326=ADVANCED_FACE('',(#276),#547,.T.);
#327=ADVANCED_FACE('',(#277,#278),#56,.F.);
#328=ADVANCED_FACE('',(#279,#280),#57,.F.);
#329=ADVANCED_FACE('',(#281,#282),#58,.F.);
#330=ADVANCED_FACE('',(#283,#284),#59,.F.);
#331=ADVANCED_FACE('',(#285,#286),#60,.F.);
#332=ADVANCED_FACE('',(#287,#288),#61,.F.);
#333=ADVANCED_FACE('',(#289,#290),#62,.F.);
#334=ADVANCED_FACE('',(#291,#292),#63,.F.);
#335=ADVANCED_FACE('',(#293,#294),#64,.F.);
#336=ADVANCED_FACE('',(#295,#296),#65,.F.);
#337=ADVANCED_FACE('',(#297,#298),#66,.F.);
#338=ADVANCED_FACE('',(#299,#300,#301,#302,#303,#304,#305,#306,#307,#308,
#309,#310),#548,.T.);
#339=ADVANCED_FACE('',(#311,#312,#313,#314,#315,#316,#317,#318,#319,#320,
#321,#322),#549,.F.);
#340=AXIS2_PLACEMENT_3D('',#463,#379,$);
#341=AXIS2_PLACEMENT_3D('',#472,#384,$);
#342=AXIS2_PLACEMENT_3D('',#478,#388,$);
#343=AXIS2_PLACEMENT_3D('',#484,#392,$);
#344=AXIS2_PLACEMENT_3D('',#487,#395,#396);
#345=AXIS2_PLACEMENT_3D('',#488,#397,#398);
#346=AXIS2_PLACEMENT_3D('',#490,#399,#400);
#347=AXIS2_PLACEMENT_3D('',#492,#401,#402);
#348=AXIS2_PLACEMENT_3D('',#493,#403,#404);
#349=AXIS2_PLACEMENT_3D('',#495,#405,#406);
#350=AXIS2_PLACEMENT_3D('',#497,#407,#408);
#351=AXIS2_PLACEMENT_3D('',#498,#409,#410);
#352=AXIS2_PLACEMENT_3D('',#500,#411,#412);
#353=AXIS2_PLACEMENT_3D('',#502,#413,#414);
#354=AXIS2_PLACEMENT_3D('',#503,#415,#416);
#355=AXIS2_PLACEMENT_3D('',#505,#417,#418);
#356=AXIS2_PLACEMENT_3D('',#507,#419,#420);
#357=AXIS2_PLACEMENT_3D('',#508,#421,#422);
#358=AXIS2_PLACEMENT_3D('',#510,#423,#424);
#359=AXIS2_PLACEMENT_3D('',#512,#425,#426);
#360=AXIS2_PLACEMENT_3D('',#513,#427,#428);
#361=AXIS2_PLACEMENT_3D('',#515,#429,#430);
#362=AXIS2_PLACEMENT_3D('',#517,#431,#432);
#363=AXIS2_PLACEMENT_3D('',#518,#433,#434);
#364=AXIS2_PLACEMENT_3D('',#520,#435,#436);
#365=AXIS2_PLACEMENT_3D('',#522,#437,#438);
#366=AXIS2_PLACEMENT_3D('',#523,#439,#440);
#367=AXIS2_PLACEMENT_3D('',#525,#441,#442);
#368=AXIS2_PLACEMENT_3D('',#527,#443,#444);
#369=AXIS2_PLACEMENT_3D('',#528,#445,#446);
#370=AXIS2_PLACEMENT_3D('',#530,#447,#448);
#371=AXIS2_PLACEMENT_3D('',#532,#449,#450);
#372=AXIS2_PLACEMENT_3D('',#533,#451,#452);
#373=AXIS2_PLACEMENT_3D('',#535,#453,#454);
#374=AXIS2_PLACEMENT_3D('',#537,#455,#456);
#375=AXIS2_PLACEMENT_3D('',#538,#457,#458);
#376=AXIS2_PLACEMENT_3D('',#540,#459,#460);
#377=AXIS2_PLACEMENT_3D('',#542,#461,$);
#378=AXIS2_PLACEMENT_3D('',#543,#462,$);
#379=DIRECTION('',(-5.59482469102441E-16,0.,1.));
#380=DIRECTION('',(-1.,0.,-5.59482469102441E-16));
#381=DIRECTION('',(0.,1.,0.));
#382=DIRECTION('',(1.,0.,5.59482469102441E-16));
#383=DIRECTION('',(0.,1.,0.));
#384=DIRECTION('',(-1.,0.,0.));
#385=DIRECTION('',(0.,0.,-1.));
#386=DIRECTION('',(0.,1.,0.));
#387=DIRECTION('',(0.,0.,1.));
#388=DIRECTION('',(0.,0.,-1.));
#389=DIRECTION('',(1.,0.,0.));
#390=DIRECTION('',(0.,1.,0.));
#391=DIRECTION('',(-1.,0.,0.));
#392=DIRECTION('',(1.,0.,0.));
#393=DIRECTION('',(0.,0.,1.));
#394=DIRECTION('',(0.,0.,-1.));
#395=DIRECTION('',(0.,1.,0.));
#396=DIRECTION('',(0.26035,0.,0.));
#397=DIRECTION('',(0.,1.,0.));
#398=DIRECTION('',(0.26035,0.,0.));
#399=DIRECTION('',(0.,1.,0.));
#400=DIRECTION('',(0.26035,0.,0.));
#401=DIRECTION('',(0.,1.,0.));
#402=DIRECTION('',(0.26035,0.,0.));
#403=DIRECTION('',(0.,1.,0.));
#404=DIRECTION('',(0.26035,0.,0.));
#405=DIRECTION('',(0.,1.,0.));
#406=DIRECTION('',(0.26035,0.,0.));
#407=DIRECTION('',(0.,1.,0.));
#408=DIRECTION('',(0.26035,0.,0.));
#409=DIRECTION('',(0.,1.,0.));
#410=DIRECTION('',(0.26035,0.,0.));
#411=DIRECTION('',(0.,1.,0.));
#412=DIRECTION('',(0.26035,0.,0.));
#413=DIRECTION('',(0.,1.,0.));
#414=DIRECTION('',(0.203200000000002,0.,0.));
#415=DIRECTION('',(0.,1.,0.));
#416=DIRECTION('',(0.203200000000002,0.,0.));
#417=DIRECTION('',(0.,1.,0.));
#418=DIRECTION('',(0.203200000000002,0.,0.));
#419=DIRECTION('',(0.,1.,0.));
#420=DIRECTION('',(0.2032,0.,0.));
#421=DIRECTION('',(0.,1.,0.));
#422=DIRECTION('',(0.2032,0.,0.));
#423=DIRECTION('',(0.,1.,0.));
#424=DIRECTION('',(0.2032,0.,0.));
#425=DIRECTION('',(0.,1.,0.));
#426=DIRECTION('',(0.203199999999999,0.,0.));
#427=DIRECTION('',(0.,1.,0.));
#428=DIRECTION('',(0.203199999999999,0.,0.));
#429=DIRECTION('',(0.,1.,0.));
#430=DIRECTION('',(0.203199999999999,0.,0.));
#431=DIRECTION('',(0.,1.,0.));
#432=DIRECTION('',(0.238125,0.,0.));
#433=DIRECTION('',(0.,1.,0.));
#434=DIRECTION('',(0.238125,0.,0.));
#435=DIRECTION('',(0.,1.,0.));
#436=DIRECTION('',(0.238125,0.,0.));
#437=DIRECTION('',(0.,1.,0.));
#438=DIRECTION('',(0.238124999999997,0.,0.));
#439=DIRECTION('',(0.,1.,0.));
#440=DIRECTION('',(0.238124999999997,0.,0.));
#441=DIRECTION('',(0.,1.,0.));
#442=DIRECTION('',(0.238124999999997,0.,0.));
#443=DIRECTION('',(0.,1.,0.));
#444=DIRECTION('',(0.396875,0.,0.));
#445=DIRECTION('',(0.,1.,0.));
#446=DIRECTION('',(0.396875,0.,0.));
#447=DIRECTION('',(0.,1.,0.));
#448=DIRECTION('',(0.396875,0.,0.));
#449=DIRECTION('',(0.,1.,0.));
#450=DIRECTION('',(0.396875000000001,0.,0.));
#451=DIRECTION('',(0.,1.,0.));
#452=DIRECTION('',(0.396875000000001,0.,0.));
#453=DIRECTION('',(0.,1.,0.));
#454=DIRECTION('',(0.396875000000001,0.,0.));
#455=DIRECTION('',(0.,1.,0.));
#456=DIRECTION('',(0.26035,0.,0.));
#457=DIRECTION('',(0.,1.,0.));
#458=DIRECTION('',(0.26035,0.,0.));
#459=DIRECTION('',(0.,1.,0.));
#460=DIRECTION('',(0.26035,0.,0.));
#461=DIRECTION('',(0.,1.,0.));
#462=DIRECTION('',(0.,1.,0.));
#463=CARTESIAN_POINT('',(0.,0.,-27.701875));
#464=CARTESIAN_POINT('',(-3.175,0.9525,-27.701875));
#465=CARTESIAN_POINT('',(3.175,0.9525,-27.701875));
#466=CARTESIAN_POINT('',(-3.175,0.9525,-27.701875));
#467=CARTESIAN_POINT('',(-3.175,0.,-27.701875));
#468=CARTESIAN_POINT('',(-3.175,0.,-27.701875));
#469=CARTESIAN_POINT('',(-3.175,0.,-27.701875));
#470=CARTESIAN_POINT('',(3.175,0.,-27.701875));
#471=CARTESIAN_POINT('',(3.175,0.,-27.701875));
#472=CARTESIAN_POINT('',(-3.175,0.,-30.5196875));
#473=CARTESIAN_POINT('',(-3.175,0.9525,-33.3375));
#474=CARTESIAN_POINT('',(-3.175,0.9525,-33.3375));
#475=CARTESIAN_POINT('',(-3.175,0.,-33.3375));
#476=CARTESIAN_POINT('',(-3.175,0.,-33.3375));
#477=CARTESIAN_POINT('',(-3.175,0.,-33.3375));
#478=CARTESIAN_POINT('',(0.,0.,-33.3375));
#479=CARTESIAN_POINT('',(3.175,0.9525,-33.3375));
#480=CARTESIAN_POINT('',(3.175,0.9525,-33.3375));
#481=CARTESIAN_POINT('',(3.175,0.,-33.3375));
#482=CARTESIAN_POINT('',(3.175,0.,-33.3375));
#483=CARTESIAN_POINT('',(3.175,0.,-33.3375));
#484=CARTESIAN_POINT('',(3.175,0.,-30.5196875));
#485=CARTESIAN_POINT('',(3.175,0.9525,-27.701875));
#486=CARTESIAN_POINT('',(3.175,0.,-27.701875));
#487=CARTESIAN_POINT('',(2.53999999999999,0.,-29.2496875));
#488=CARTESIAN_POINT('',(2.53999999999999,0.9525,-29.2496875));
#489=CARTESIAN_POINT('',(2.80034999999999,0.9525,-29.2496875));
#490=CARTESIAN_POINT('',(2.53999999999999,0.,-29.2496875));
#491=CARTESIAN_POINT('',(2.80034999999999,0.,-29.2496875));
#492=CARTESIAN_POINT('',(-2.54000000000001,0.,-29.2496875));
#493=CARTESIAN_POINT('',(-2.54000000000001,0.9525,-29.2496875));
#494=CARTESIAN_POINT('',(-2.27965000000001,0.9525,-29.2496875));
#495=CARTESIAN_POINT('',(-2.54000000000001,0.,-29.2496875));
#496=CARTESIAN_POINT('',(-2.27965000000001,0.,-29.2496875));
#497=CARTESIAN_POINT('',(-2.54000000000001,0.,-31.7896875));
#498=CARTESIAN_POINT('',(-2.54000000000001,0.9525,-31.7896875));
#499=CARTESIAN_POINT('',(-2.27965000000001,0.9525,-31.7896875));
#500=CARTESIAN_POINT('',(-2.54000000000001,0.,-31.7896875));
#501=CARTESIAN_POINT('',(-2.27965000000001,0.,-31.7896875));
#502=CARTESIAN_POINT('',(-1.5875,0.,-30.5196875));
#503=CARTESIAN_POINT('',(-1.5875,0.9525,-30.5196875));
#504=CARTESIAN_POINT('',(-1.3843,0.9525,-30.5196875));
#505=CARTESIAN_POINT('',(-1.5875,0.,-30.5196875));
#506=CARTESIAN_POINT('',(-1.3843,0.,-30.5196875));
#507=CARTESIAN_POINT('',(1.5875,0.,-30.5196875));
#508=CARTESIAN_POINT('',(1.5875,0.9525,-30.5196875));
#509=CARTESIAN_POINT('',(1.79069999999999,0.9525,-30.5196875));
#510=CARTESIAN_POINT('',(1.5875,0.,-30.5196875));
#511=CARTESIAN_POINT('',(1.79069999999999,0.,-30.5196875));
#512=CARTESIAN_POINT('',(-4.59694532365231E-15,0.,-30.5196875));
#513=CARTESIAN_POINT('',(-4.59694532365231E-15,0.9525,-30.5196875));
#514=CARTESIAN_POINT('',(0.203199999999995,0.9525,-30.5196875));
#515=CARTESIAN_POINT('',(-4.59694532365231E-15,0.,-30.5196875));
#516=CARTESIAN_POINT('',(0.203199999999995,0.,-30.5196875));
#517=CARTESIAN_POINT('',(0.,0.,-28.41625));
#518=CARTESIAN_POINT('',(0.,0.9525,-28.41625));
#519=CARTESIAN_POINT('',(0.238125,0.9525,-28.41625));
#520=CARTESIAN_POINT('',(0.,0.,-28.41625));
#521=CARTESIAN_POINT('',(0.238125,0.,-28.41625));
#522=CARTESIAN_POINT('',(0.,0.,-32.623125));
#523=CARTESIAN_POINT('',(0.,0.9525,-32.623125));
#524=CARTESIAN_POINT('',(0.238124999999997,0.9525,-32.623125));
#525=CARTESIAN_POINT('',(0.,0.,-32.623125));
#526=CARTESIAN_POINT('',(0.238124999999997,0.,-32.623125));
#527=CARTESIAN_POINT('',(0.,0.,-29.289375));
#528=CARTESIAN_POINT('',(0.,0.9525,-29.289375));
#529=CARTESIAN_POINT('',(0.396875,0.9525,-29.289375));
#530=CARTESIAN_POINT('',(0.,0.,-29.289375));
#531=CARTESIAN_POINT('',(0.396875,0.,-29.289375));
#532=CARTESIAN_POINT('',(0.,0.,-31.75));
#533=CARTESIAN_POINT('',(0.,0.9525,-31.75));
#534=CARTESIAN_POINT('',(0.396875000000001,0.9525,-31.75));
#535=CARTESIAN_POINT('',(0.,0.,-31.75));
#536=CARTESIAN_POINT('',(0.396875000000001,0.,-31.75));
#537=CARTESIAN_POINT('',(2.53999999999999,0.,-31.7896875));
#538=CARTESIAN_POINT('',(2.53999999999999,0.9525,-31.7896875));
#539=CARTESIAN_POINT('',(2.80034999999999,0.9525,-31.7896875));
#540=CARTESIAN_POINT('',(2.53999999999999,0.,-31.7896875));
#541=CARTESIAN_POINT('',(2.80034999999999,0.,-31.7896875));
#542=CARTESIAN_POINT('',(4.01311200472573E-16,0.9525,-30.5196875));
#543=CARTESIAN_POINT('',(4.01311200472573E-16,0.,-30.5196875));
#544=PLANE('',#340);
#545=PLANE('',#341);
#546=PLANE('',#342);
#547=PLANE('',#343);
#548=PLANE('',#377);
#549=PLANE('',#378);
#550=CLOSED_SHELL('',(#323,#324,#325,#326,#327,#328,#329,#330,#331,#332,
#333,#334,#335,#336,#337,#338,#339));
#551=MANIFOLD_SOLID_BREP('',#550);
#552=ADVANCED_BREP_SHAPE_REPRESENTATION('',(#551),#33);
ENDSEC;
END-ISO-10303-21;
